Sudah berlangganan artikel blog ini via RSS Feed?

Chord 100 Times Fuckeder - Nofx

Favorite Links related to Chord 100 Times Fuckeder - Nofx : Chord As Wicked (This Is The Best Song Ever) - Rancid. Next chord Guitar and Lyrics 100 Times Fuckeder :

Chord 100 Times Fuckeder

e-------------------------------------|

b-------------------------------------|

g-------------------------------------|

d----44------55-------22--------------|

a-2-5--55---5--55----2--22---1-4455---|

e---------3--------0--------2---------|

     B5    G5
     fighting with glove    s
     E5    Fs5    A5
     now we're the ones     a hundred times fuckeder   
     B5    G5
     hitting above the belt      
     E5    Fs5    A5
     now we're the ones     a hundred times fuckeder   
     B5    G5
     citing de    fense
     E5    Fs5    A5
     now we're the ones     a hundred times fuckeder   
     B5    G5
     absorbing all the lies     
     E5    Fs5    A5
     now we're the ones     a hundred times fuckeder   

     G    Bm
     we get what we fucking deserve        

bringing raised fists to a knife fight
     G    Bm
     you'd think developed minds could learn                 

not to give benefit of doubt
     G    Em
     you wouldn't trust a hungry animal          
     Fs5
around your newborn,     would you?

after "..your new born would you???" this bit is played then back into the intro riff

e------------------|
b------------------|
g------------------|
d-44-22------------|
a--------55-44-----|
e------------------|

Intro x2
After first verse one guitar plays the intro, second guitar plays this twice:

e-----------------------------------------|
b-----------------------------------------|
g-----------------------------------------|
d-----------------------------------------|
a-2222222---------------------------------|
e---------3333333-000000-222222-555-------|

Please try, Chord 100 Times Fuckeder - Nofx enjoy.