Sudah berlangganan artikel blog ini via RSS Feed?

Chord Journey To The end of East Bay - Rancid

Album name: AND OUT COME THE WOLVES, by RANCID.  Favorite Links related to the Chord Journey To The end of  East Bay - Rancid : Chord dan Lirik Ruby soho - Rancid. Next chord Guitar and Lyrics Journey To The end of  East Bay :

Chord Journey To The end of  East Bay

Bass Intro
e|-----------------------------------------------|
B|-----------------------------------------------|
G|-------------4---4---------6-9-6---------------|
D|---2-3-4-5-5---5---5-5-5/7-------7-3-----------|
A|-3-------------------------------------0-1-2---|
E|-------------------------------------1---------|

e|--------------------------------------------------|
B|--------------------------------------------------|
G|--------------------------------------------------|
D|---2-3-4-5-5-5-5-5-5-5-3-------------2p0----------|
A|-3-------------------------0-1-2-3-3-----3p0------|
E|-------------------------1--------------------3p0-|

e|-----------------------------------------------|
B|-----------------------------------------------|
G|-------------4---4---------6-9-6---------------|
D|---2-3-4-5-5---5---5-5-5/7-------7-3-----------|
A|-3-------------------------------------0-1-2---|
E|-------------------------------------1---------|

e|--------------------------------------------------------|
B|--------------------------------------------------------|
G|--------------------------------------------------------|
D|---2-3-4-5-5-5-5-5-5-5-3-3-3-3-2-2-2-2-0-0-0-0----------|
A|-3---------------------------------------------3p0------|
E|----------------------------------------------------3p0-|

(INTRO-PT 2-PLAY AS OCTIVES)
C  G  A  F
C  G  F
C  G  A  F
C  G  F  

Verse 1
C         G                A               F
Reconcile to the belief consumed in sacred ground for me
C                     G
There wasn't always a place to go
              A                F
But there was always an urgent need to belong

C                   G
All these bands and all this people
A                     F
All these friends and we were equals but
C                 G                   A      F
What you gonna do when everybody goes on without you


Chorus                
       C          G        A              F
To the end to the end I'll journey to the end
       C          G        A              F
To the end to the end I'll journey to the end                                                  
       C   G   A   F
To the e-e-end e-e-end
       C          G        A              F
To the end to the end I'll journey to the end

Verse 2
C              G
Started in '87 ended in '89
A                      F
You got a garage or an amp we'll play anytime
C                          G
It was just the four of us, yeah man the core of us                                                  
A                     F
Too much attention unavoidably destroyed us

Verse 3
C                 G
Four kids on tour three thousand miles
A                  F
In a four door car not knowing what was going on
C                       G
You got a million years it would turn out like this
A                F
Hell no, no premonition could've saved us

Chorus            
       C          G        A              F
To the end to the end I'll journey to the end
       C          G        A              F
To the end to the end I'll journey to the end                                                  
       C   G   A   F
To the e-e-end e-e-end
       C          G        A              F
To the end to the end I'll journey to the end

(INTRO-PT 2-PLAY AS OCTIVES)
C  G  A  F
C  G  F
C  G  A  F
C  G  F  

Verse 4
C               G        A                F
Matty came from far away from New Orleans into the East Bay
C                 G
He said this is a Mecca
       A                        F
I said this ain't no Mecca man, this place is fucked

C                  G              A              F
Three months go by he had no home he had no food he's all alone
C                  G
Matty said fool me once shame on you
        A                     F
He said fool me twice he went back to New Orleans

Chorus                
       C          G        A              F
To the end to the end I'll journey to the end
       C          G        A              F
To the end to the end I'll journey to the end                                                  
       C   G   A   F
To the e-e-end e-e-end
       C          G        A              F
To the end to the end I'll journey to the end


END WITH-
C C G G A A F F F
C C G G A A F F C

Please try Chord Journey To The end of  East Bay - Rancid