Sudah berlangganan artikel blog ini via RSS Feed?

Chord Listed M.I.A - Rancid

Nama Album : Nama Album : AND OUT COME THE WOLVES yang di bawakan oleh RANCID. Link Favorit Yang berhubungan dengan Chord Listed M.I.A - Rancid : Chord Gitar Olympia Wa - Rancid. Berikut Chord Gitar dan LirikListed M.I.A - Rancid :

Chord Listed M.I.A - Rancid

Intro X2

e---------------------------------
B-7-7-7-7-8-8-8-8-7-7-7-7-7-5-3-0-
G---------------------------------
D---------------------------------
A---------------------------------
E---------------------------------

Verse 1

B       e  B                e B
Goddamn it man almost had it
B                  e B                    e B
Stuck in the sewer beneath all the maggots
B              e B   
I ain't fooling  I been pursuing
e B                 e     B              e
A way to get out of these dirty old ruins

Chorus

B   Eb               e                  F#
I'm checking out I'm never coming back again
B   Eb               e          F#
I'm checking out I'm listed M.I.A.

Verse 2

B       e  B                e B
Goddamn it man almost had it
B                      e B                  e B
They threw out the door  calling me a faggot
B            e B
I ain't done I only yet begun
e    B                    e     B              e
West Oakland is the place where I'm coming from

Chorus

B   Eb               e                  F#
I'm checking out I'm never coming back again
B   Eb               e          F#
I'm checking out I'm listed M.I.A.

Solo
e----------------------------------------------
B----------------------------------------------
G---------7-7-7-9-9-7------------7-7-7-9-9-7---
D-7-7-8-9-------------9--7-7-8-9-------------9-
A----------------------------------------------
E----------------------------------------------

e-----------------------------------------------
B-7-7-7-7-8-8-8-8-7-7-7-7-7-5-3-0-7-7-7-7-8-8-8-
G-----------------------------------------------
D-----------------------------------------------
A-----------------------------------------------
E-----------------------------------------------

e|----------------------------------------------
B|-8-7-7-7-7-7-5-3-/----------------------------
G|----------------------------------------------
D|----------------------------------------------
A|----------------------------------------------
E|----------------------------------------------

Bridge

A      F# B
Oh yeah
A      F# B
Oh yeah
A      F# B
Oh yeah

B A D F#

Verse 3
B       e  B                e
Goddamn it man almost had it
e      B                 e B                e B
Well I did it again yeah I do it outta habit
B       e B              e
I'm numb  it ain't no fun
B                  e        B             e B
I'm less than zero when you add up the sum

play this during the 2nd part of the verse over the chords:

e-7-7-7-0-
B-7-7-7-0-
G---------
D---------
A---------
E---------

Chorus

B                    e B                     e
I'm checking out yeah  it ain't no doubt yeah
e B                          e     B              e B
A courtship built from anger is to what it amounts
B              e B              e
I almost had it  I almost had it
e B                 e
I came so close man I almost had it

Chorus

B   Eb               e                  F#
I'm checking out I'm never coming back again
B   Eb               e          F#
I'm checking out I'm listed M.I.A.

Chorus

B   Eb               e                  F#
I'm checking out I'm never coming back again
B   Eb               e          F#   B e B
I'm checking out I'm listed M.I.A.

END ON B-

Selamat Mencoba Listed M.I.A - Rancid