Sudah berlangganan artikel blog ini via RSS Feed?

Chord Old Friend (another cool ska song) - Rancid

Album name: AND OUT COME THE WOLVES, by RANCID.  Favorite Links related to the Chord Old Friend - Rancid : Chord dan Lirik Ruby soho - Rancid. Next chord Guitar and Lyrics Old Friend :

Chord Old Friend

Intro
      Bm        D     Bm        D     Bm        D    A         e
e|-------------------------------------------------2-0--2-0--2-0--2-0--|
B|---------------------------------------------------------------------|
G|--4~-4--4-4-2-----4~-4--4-4-2-----4~-4--4-4-2------------------------|
D|--------------4---------------4---------------4----------------------|
A|---------------------------------------------------------------------|
E|---------------------------------------------------------------------|
   (4~ = tremolo picking)

Introx2

Chorus

A            e
Good morning heartache
               F#m                  D
You're like an old friend, come to see me again
A            e
Good morning heartache
               F#m                  D
You're like an old friend, come to see me again

Verse 1

A     e            F#m        D
Wake up, you're in Cleveland again
       A     e         F#m   D
It's a solid line that never ends
      A      e            F#m     D
I got stories that you'll never believe
      A        e            F#m        D
And I know it, I wear it, I wear it on my sleeve

Verse 2
A             e               F#m        D
There must be something 'bout you that I liked
          A            e                 F#m             D
But right here in this rain, you know it just don't seem right
  A         e      F#m   D
I always go out, I never hide
       A        e             F#m      D
But in Cleveland, I should've stayed inside

Chorus
A            e
Good morning heartache
               F#m                  D
You're like an old friend, come to see me again
A            e
Good morning heartache
               F#m                  D
You're like an old friend, come to see me again

Verse 3

A    e     F#m      D
Justify my love for you
      A            e            F#m       D
And I know it runs deep through your body too
         A         e          F#m    D
From the cold blacktop to the hot concrete
       A       e       F#m       D
In the old tin van, it ain't so sweet

Chorus

A            e
Good morning heartache
               F#m                  D
You're like an old friend, come to see me again
A            e
Good morning heartache
               F#m                  D
You're like an old friend, come to see me again

Intro
      Bm        D     Bm        D     Bm        D    A         e
e|-------------------------------------------------2-0--2-0--2-0--2-0--|
B|---------------------------------------------------------------------|
G|--4~-4--4-4-2-----4~-4--4-4-2-----4~-4--4-4-2------------------------|
D|--------------4---------------4---------------4----------------------|X2
A|---------------------------------------------------------------------|
E|---------------------------------------------------------------------|

Bridge
              A     e   F#   D
Somewhere in America       Through...
    A      e     F#    D
The city at night
A        e          F#    D
We were far from home
         A   e           F#   D
But you know, it's gonna be alright


[SOLO] ( chorus chords)


Verse 4
      A             e            F#m        D
The unfortunate get preyed on by vultures' eyes
 A e              F#m        D
86 cents in these pockets of mine
        A       e              F#m     D
You can take my money, you can take my time
        A             e                  F#m    D
But you can't take my heart, it's in the city behind

Chorus
A            e
Good morning heartache
               F#m                  D
You're like an old friend, come to see me again
A            e
Good morning heartache
               F#m                  D
You're like an old friend, come to see me again

Outro (ORGAN ASWELL)

A   e   F#m  D
A   e   F#m  D
A   e   F#m  D

A*  e*  F#*  D*  A*

Please try Chord Old Friend (another cool ska song) - Rancid