Sudah berlangganan artikel blog ini via RSS Feed?

Chord Olive Me - Nofx

Album name : Fat Wreck Chords Comp, By NOFX. Favorite Links related to the Chord Olive Me - Nofx: Chord Guitar The Brews - Nofx. Next chord Guitar and Lyrics Olive Me :

Chord Olive Me


E----------------------------------|

B----------------------------------|

G---5-----------7---10---13--------|

D---5---2---7---7---10---13----5---|

A---3---2---7---5----8---11----5---|

E-------0---5------------------3---|

CEADFiiG#iiG
(Intro):
bass riff, then play this 4x:
E-------------------------|
B-------------------------|
G-------------------------|
D--5-5-5-5-5--6-6-6--7-7--|
A-------------------------|
E-------------------------|




Verse:
CEA
All of me, why not take all? Can't you see I'm no good with-
DEAD
out you? Take these arms, I wanna lose them. Take these lips
FiiECEA
I'll never use them. Your goodbye left me with eyes. How can
D
I go on being without you?

Chorus:
FiiG#iiCAD
You took the best, so why not take the rest? Why not take
GC
olive me?

(Repeat intro, with C-E being played on one guitar, and riff played on
the other)

CEA
All of me, why not take all of me? Can't you see I'm no good
DEAD
without you? Take these arms, I wanna lose them. Take these
FiiECE
lips I'll never use them. Your goodbye left me with eyes
AD
that cried. How can I go on being without?

FiiG#iiCADG
You took the part that once was my heart, why not take olive
C
me?

Please try Chord Olive Me - Nofx