Sudah berlangganan artikel blog ini via RSS Feed?

Chord Where Are They Now - Cock Sparrer

Following the earlier songs, but most fun, with a title Where Are They Now and were by Cock Sparrer. Favorite Links related to the Chord  Where Are They Now - Cock Sparrer : Chord Were Coming Back - Cock Sparrer. Next chord Guitar and Lyrics Where Are They Now :

Chord  Where Are They Now

e--9-9-9-9-9-9-9-9--9--7--5-----------------------------|


B-----------------------------7-7-7-7-7-7--7/10-10-9-9--|


G-------------------------------------------------------| x2


D-------------------------------------------------------|


A-------------------------------------------------------|


E-------------------------------------------------------|


ADAD
Where are they now, Where are they now?
AD
Where are they, six years on and they've all gone
e
Now it's all turned sour, Where are they now?

Intro Riff x2

Verse 2:
A C# D e
Hollywood nights in Soho, writing on the wall of The Roxy, loo!
A C# D e
Rotten on the telly, showing what a few choice words can do
D e D e
Was it ever worth it, causing all the fuss
D e
You know, I believed in them, don't you believe in us

Chorus x1

Intro Riff x2

Bridge:
DADA
No more kids are innocent, we will get fooled again?
D A e
Only faces ever change, the song remains the same

Solo: x2
e--5----9--7--5----9--7--5----5--7-----|
B-----------------------------------5--|
G--------------------------------------|
D--------------------------------------|
A--------------------------------------|
E--------------------------------------|

D e D e
Was it ever worth it, causing all the fuss
D e
You know, I believed in them, don't you believe in us

Chorus x1

Solo x4

That's it! For suggestions, corrections, and requests, email me: oddmenout4@yahoo.com

Please try Chord  Where Are They Now - Cock Sparrer